Make your own free website on Tripod.com
SINNER MAN

 -----2----------|-----2-------2----|-----2----------|-----2----0--0---
 --0--0----------|-----0-------0----|--0--0----0-----|--0--0----|--0---
 --|--0----0-----|-----0-------0----|--|--0----|--2--|--|--0----|--0---
 --|-------|--4--|--2-------2-------|--|-------|--|--|--|-------|------
 --|----0--|--|--|--|----0--|----0--|--|----0--|--|--|--|----0--|----0-
 
 -----0----------|-----0-------0----|------0---------|-----0-------0---
 -----3----------|-----3-------3----|------3---------|-----3-------3---
 --2--2----------|-----2----2--2----|--0^2-2----2--0-|--2--2----2--2---
 --|-------4--2--|--0-------|-------|-----------|--|-|--|-------|------
 --|----0--|--|--|--|----0--|----0--|--------0--|--|-|--|----0--|----0-
 
 -----2----------|-----2-------2----|-----2----------|-----2----0--0---
 --0--0----------|-----0-------0----|--0--0----0-----|--0--0----|--0---
 --|--0----0-----|-----0-------0----|--|--0----|--2--|--|--0----|--0---
 --|-------|--4--|--2-------2-------|--|-------|--|--|--|-------|------
 --|----0--|--|--|--|----0--|----0--|--|----0--|--|--|--|----0--|----0-
 
 -----2---2---2--|------0-------0---|-------2------2--|------2-------2-
 --0--0-----0-0--|------3-------3---|-------0------0--|------0-------0-
 --|--0-------0--|--0^2-2-------2---|-------0------0--|------0-------0-
 --|-------------|-----------4------|--0^2------2-----|--0^2------2--|-
 --|----0-------0|--------0--|----0-|--------0--|----0|--------0--|--|-
 
 Oh sinner man where you gonna run to oh sinner man where you gonna run
 oh sinner man where you gonna run to--- aaall on that day. gDGBD
                  GO TO MAIN PAGE TO HEAR THIS IN REALAUDIO
 
 
 
 
 
 
 
 
 
 
 
 
 
 
 

THINGS IN LIFE BY DON STOVER

 ------0------0----|------0------0---|--0---0------0---|------0-----5---|
 ------0------0----|------0--2^4-4---|----2--------0---|------0-----5---|
 ------0---0--0----|--0^2-0------0---|----------0--0---|--1^0-0-----5---|
 --2^4-----|-------|-----------------|----------|------|----------5-----|
 --------0-|----0--|--------0------0-|--------0-|----0-|--------0-|---0-|
 
 ------5-------5---|------1------1---|------1-----1----|-----------0----|
 --5---5----5--5---|------0---0--0---|--0^2-2---0-0----|--0^2------0----|
 ----5-5----|--5---|--0^2-2---|------|----------|------|------2--0-0----|
 -----------|------|----------|------|----------|------|------|--|------|
 ---------0-|----0-|--------0-|----0-|--------0-|---0--|------|--|---0--|
 
 ------------0----|------------------------------------------------------
 ------------0----|------------------------------------------------------
 --2^0-------0----|------------------------------------------------------
 ------2^4-0------|------------------------------------------------------
 ----------|---0--|----------------------------------------------------
 this tab is from my reccolection of a tab written by Hank Edenborn
 
 I forgot to tell you to tune you'r banjo GCGCE! yup E
       GO TO MAIN PAGE TO HEAR THIS IN REAL AUDIO